ISO-10303-21;
HEADER;
/* Generated by software containing ST-Developer
 * from STEP Tools, Inc. (www.steptools.com) 
 */
/* OPTION: using custom renumber hook */

FILE_DESCRIPTION(
/* description */ ('STEP AP242',
'CAx-IF Rec.Pracs.---Representation and Presentation of Product Manufa
cturing Information (PMI)---4.0---2014-10-13',
'CAx-IF Rec.Pracs.---3D Tessellated Geometry---0.4---2014-09-14','2;1'),

/* implementation_level */ '2;1');

FILE_NAME(
/* name */ '62e38f6b52a3ed4c63747bff',
/* time_stamp */ '2022-07-29T07:42:36+00:00',
/* author */ (''),
/* organization */ (''),
/* preprocessor_version */ 'ST-DEVELOPER v18.102',
/* originating_system */ '  ',
/* authorisation */ '  ');

FILE_SCHEMA (('AP242_MANAGED_MODEL_BASED_3D_ENGINEERING_MIM_LF { 1 0 10303 442 1 1 4 }'));
ENDSEC;

DATA;
#10=SHAPE_REPRESENTATION_RELATIONSHIP('','',#301,#11);
#11=ADVANCED_BREP_SHAPE_REPRESENTATION('',(#299),#531);
#12=VERTEX_LOOP('',#127);
#13=VERTEX_LOOP('',#129);
#14=VERTEX_LOOP('',#131);
#15=VERTEX_LOOP('',#133);
#16=CONICAL_SURFACE('',#334,0.0075,0.78539816339745);
#17=CONICAL_SURFACE('',#335,0.0045,0.785398163397445);
#18=CONICAL_SURFACE('',#336,0.007,0.78539816339745);
#19=CONICAL_SURFACE('',#337,0.012,0.78539816339746);
#20=CONICAL_SURFACE('',#338,0.016,0.785398163397442);
#21=CONICAL_SURFACE('',#339,0.0135,1.0471975511966);
#22=CONICAL_SURFACE('',#340,0.00165,1.02974425867665);
#23=CONICAL_SURFACE('',#343,0.00165,1.02974425867665);
#24=CONICAL_SURFACE('',#346,0.00165,1.02974425867665);
#25=CONICAL_SURFACE('',#349,0.00165,1.02974425867665);
#26=CYLINDRICAL_SURFACE('',#305,0.0075);
#27=CYLINDRICAL_SURFACE('',#314,0.016);
#28=CYLINDRICAL_SURFACE('',#320,0.0125);
#29=CYLINDRICAL_SURFACE('',#325,0.0075);
#30=CYLINDRICAL_SURFACE('',#330,0.005);
#31=CYLINDRICAL_SURFACE('',#342,0.00165);
#32=CYLINDRICAL_SURFACE('',#345,0.00165);
#33=CYLINDRICAL_SURFACE('',#348,0.00165);
#34=CYLINDRICAL_SURFACE('',#351,0.00165);
#35=ORIENTED_EDGE('',*,*,#83,.T.);
#36=ORIENTED_EDGE('',*,*,#84,.T.);
#37=ORIENTED_EDGE('',*,*,#85,.F.);
#38=ORIENTED_EDGE('',*,*,#86,.F.);
#39=ORIENTED_EDGE('',*,*,#87,.F.);
#40=ORIENTED_EDGE('',*,*,#88,.F.);
#41=ORIENTED_EDGE('',*,*,#89,.F.);
#42=ORIENTED_EDGE('',*,*,#90,.T.);
#43=ORIENTED_EDGE('',*,*,#85,.T.);
#44=ORIENTED_EDGE('',*,*,#91,.T.);
#45=ORIENTED_EDGE('',*,*,#92,.T.);
#46=ORIENTED_EDGE('',*,*,#93,.T.);
#47=ORIENTED_EDGE('',*,*,#94,.F.);
#48=ORIENTED_EDGE('',*,*,#95,.T.);
#49=ORIENTED_EDGE('',*,*,#94,.T.);
#50=ORIENTED_EDGE('',*,*,#96,.T.);
#51=ORIENTED_EDGE('',*,*,#97,.F.);
#52=ORIENTED_EDGE('',*,*,#98,.T.);
#53=ORIENTED_EDGE('',*,*,#97,.T.);
#54=ORIENTED_EDGE('',*,*,#99,.T.);
#55=ORIENTED_EDGE('',*,*,#100,.F.);
#56=ORIENTED_EDGE('',*,*,#101,.T.);
#57=ORIENTED_EDGE('',*,*,#100,.T.);
#58=ORIENTED_EDGE('',*,*,#102,.T.);
#59=ORIENTED_EDGE('',*,*,#83,.F.);
#60=ORIENTED_EDGE('',*,*,#84,.F.);
#61=ORIENTED_EDGE('',*,*,#101,.F.);
#62=ORIENTED_EDGE('',*,*,#102,.F.);
#63=ORIENTED_EDGE('',*,*,#98,.F.);
#64=ORIENTED_EDGE('',*,*,#99,.F.);
#65=ORIENTED_EDGE('',*,*,#95,.F.);
#66=ORIENTED_EDGE('',*,*,#96,.F.);
#67=ORIENTED_EDGE('',*,*,#90,.F.);
#68=ORIENTED_EDGE('',*,*,#92,.F.);
#69=ORIENTED_EDGE('',*,*,#91,.F.);
#70=ORIENTED_EDGE('',*,*,#93,.F.);
#71=ORIENTED_EDGE('',*,*,#103,.T.);
#72=ORIENTED_EDGE('',*,*,#103,.F.);
#73=ORIENTED_EDGE('',*,*,#89,.T.);
#74=ORIENTED_EDGE('',*,*,#104,.T.);
#75=ORIENTED_EDGE('',*,*,#104,.F.);
#76=ORIENTED_EDGE('',*,*,#88,.T.);
#77=ORIENTED_EDGE('',*,*,#105,.T.);
#78=ORIENTED_EDGE('',*,*,#105,.F.);
#79=ORIENTED_EDGE('',*,*,#87,.T.);
#80=ORIENTED_EDGE('',*,*,#106,.T.);
#81=ORIENTED_EDGE('',*,*,#106,.F.);
#82=ORIENTED_EDGE('',*,*,#86,.T.);
#83=EDGE_CURVE('',#107,#107,#135,.T.);
#84=EDGE_CURVE('',#108,#108,#136,.F.);
#85=EDGE_CURVE('',#109,#109,#137,.T.);
#86=EDGE_CURVE('',#110,#110,#138,.T.);
#87=EDGE_CURVE('',#111,#111,#139,.T.);
#88=EDGE_CURVE('',#112,#112,#140,.T.);
#89=EDGE_CURVE('',#113,#113,#141,.T.);
#90=EDGE_CURVE('',#114,#114,#142,.T.);
#91=EDGE_CURVE('',#115,#115,#143,.F.);
#92=EDGE_CURVE('',#116,#116,#144,.F.);
#93=EDGE_CURVE('',#117,#117,#145,.T.);
#94=EDGE_CURVE('',#118,#118,#146,.T.);
#95=EDGE_CURVE('',#119,#119,#147,.F.);
#96=EDGE_CURVE('',#120,#120,#148,.T.);
#97=EDGE_CURVE('',#121,#121,#149,.T.);
#98=EDGE_CURVE('',#122,#122,#150,.F.);
#99=EDGE_CURVE('',#123,#123,#151,.T.);
#100=EDGE_CURVE('',#124,#124,#152,.T.);
#101=EDGE_CURVE('',#125,#125,#153,.F.);
#102=EDGE_CURVE('',#126,#126,#154,.T.);
#103=EDGE_CURVE('',#128,#128,#155,.T.);
#104=EDGE_CURVE('',#130,#130,#156,.T.);
#105=EDGE_CURVE('',#132,#132,#157,.T.);
#106=EDGE_CURVE('',#134,#134,#158,.T.);
#107=VERTEX_POINT('',#455);
#108=VERTEX_POINT('',#458);
#109=VERTEX_POINT('',#460);
#110=VERTEX_POINT('',#463);
#111=VERTEX_POINT('',#465);
#112=VERTEX_POINT('',#467);
#113=VERTEX_POINT('',#469);
#114=VERTEX_POINT('',#471);
#115=VERTEX_POINT('',#474);
#116=VERTEX_POINT('',#476);
#117=VERTEX_POINT('',#479);
#118=VERTEX_POINT('',#481);
#119=VERTEX_POINT('',#484);
#120=VERTEX_POINT('',#487);
#121=VERTEX_POINT('',#489);
#122=VERTEX_POINT('',#492);
#123=VERTEX_POINT('',#495);
#124=VERTEX_POINT('',#497);
#125=VERTEX_POINT('',#500);
#126=VERTEX_POINT('',#503);
#127=VERTEX_POINT('',#511);
#128=VERTEX_POINT('',#513);
#129=VERTEX_POINT('',#516);
#130=VERTEX_POINT('',#518);
#131=VERTEX_POINT('',#521);
#132=VERTEX_POINT('',#523);
#133=VERTEX_POINT('',#526);
#134=VERTEX_POINT('',#528);
#135=CIRCLE('',#304,0.0065);
#136=CIRCLE('',#306,0.0075);
#137=CIRCLE('',#307,0.0075);
#138=CIRCLE('',#309,0.00165);
#139=CIRCLE('',#310,0.00165);
#140=CIRCLE('',#311,0.00165);
#141=CIRCLE('',#312,0.00165);
#142=CIRCLE('',#313,0.0155);
#143=CIRCLE('',#315,0.016);
#144=CIRCLE('',#316,0.016);
#145=CIRCLE('',#318,0.0135);
#146=CIRCLE('',#319,0.0125);
#147=CIRCLE('',#321,0.0125);
#148=CIRCLE('',#323,0.012);
#149=CIRCLE('',#324,0.0075);
#150=CIRCLE('',#326,0.0075);
#151=CIRCLE('',#328,0.007);
#152=CIRCLE('',#329,0.005);
#153=CIRCLE('',#331,0.005);
#154=CIRCLE('',#333,0.0045);
#155=CIRCLE('',#341,0.00165);
#156=CIRCLE('',#344,0.00165);
#157=CIRCLE('',#347,0.00165);
#158=CIRCLE('',#350,0.00165);
#159=EDGE_LOOP('',(#35));
#160=EDGE_LOOP('',(#36));
#161=EDGE_LOOP('',(#37));
#162=EDGE_LOOP('',(#38));
#163=EDGE_LOOP('',(#39));
#164=EDGE_LOOP('',(#40));
#165=EDGE_LOOP('',(#41));
#166=EDGE_LOOP('',(#42));
#167=EDGE_LOOP('',(#43));
#168=EDGE_LOOP('',(#44));
#169=EDGE_LOOP('',(#45));
#170=EDGE_LOOP('',(#46));
#171=EDGE_LOOP('',(#47));
#172=EDGE_LOOP('',(#48));
#173=EDGE_LOOP('',(#49));
#174=EDGE_LOOP('',(#50));
#175=EDGE_LOOP('',(#51));
#176=EDGE_LOOP('',(#52));
#177=EDGE_LOOP('',(#53));
#178=EDGE_LOOP('',(#54));
#179=EDGE_LOOP('',(#55));
#180=EDGE_LOOP('',(#56));
#181=EDGE_LOOP('',(#57));
#182=EDGE_LOOP('',(#58));
#183=EDGE_LOOP('',(#59));
#184=EDGE_LOOP('',(#60));
#185=EDGE_LOOP('',(#61));
#186=EDGE_LOOP('',(#62));
#187=EDGE_LOOP('',(#63));
#188=EDGE_LOOP('',(#64));
#189=EDGE_LOOP('',(#65));
#190=EDGE_LOOP('',(#66));
#191=EDGE_LOOP('',(#67));
#192=EDGE_LOOP('',(#68));
#193=EDGE_LOOP('',(#69));
#194=EDGE_LOOP('',(#70));
#195=EDGE_LOOP('',(#71));
#196=EDGE_LOOP('',(#72));
#197=EDGE_LOOP('',(#73));
#198=EDGE_LOOP('',(#74));
#199=EDGE_LOOP('',(#75));
#200=EDGE_LOOP('',(#76));
#201=EDGE_LOOP('',(#77));
#202=EDGE_LOOP('',(#78));
#203=EDGE_LOOP('',(#79));
#204=EDGE_LOOP('',(#80));
#205=EDGE_LOOP('',(#81));
#206=EDGE_LOOP('',(#82));
#207=FACE_BOUND('',#159,.T.);
#208=FACE_BOUND('',#160,.T.);
#209=FACE_BOUND('',#161,.T.);
#210=FACE_BOUND('',#162,.T.);
#211=FACE_BOUND('',#163,.T.);
#212=FACE_BOUND('',#164,.T.);
#213=FACE_BOUND('',#165,.T.);
#214=FACE_BOUND('',#166,.T.);
#215=FACE_BOUND('',#167,.T.);
#216=FACE_BOUND('',#168,.T.);
#217=FACE_BOUND('',#169,.T.);
#218=FACE_BOUND('',#170,.T.);
#219=FACE_BOUND('',#171,.T.);
#220=FACE_BOUND('',#172,.T.);
#221=FACE_BOUND('',#173,.T.);
#222=FACE_BOUND('',#174,.T.);
#223=FACE_BOUND('',#175,.T.);
#224=FACE_BOUND('',#176,.T.);
#225=FACE_BOUND('',#177,.T.);
#226=FACE_BOUND('',#178,.T.);
#227=FACE_BOUND('',#179,.T.);
#228=FACE_BOUND('',#180,.T.);
#229=FACE_BOUND('',#181,.T.);
#230=FACE_BOUND('',#182,.T.);
#231=FACE_BOUND('',#183,.T.);
#232=FACE_BOUND('',#184,.T.);
#233=FACE_BOUND('',#185,.T.);
#234=FACE_BOUND('',#186,.T.);
#235=FACE_BOUND('',#187,.T.);
#236=FACE_BOUND('',#188,.T.);
#237=FACE_BOUND('',#189,.T.);
#238=FACE_BOUND('',#190,.T.);
#239=FACE_BOUND('',#191,.T.);
#240=FACE_BOUND('',#192,.T.);
#241=FACE_BOUND('',#193,.T.);
#242=FACE_BOUND('',#194,.T.);
#243=FACE_BOUND('',#12,.T.);
#244=FACE_BOUND('',#195,.T.);
#245=FACE_BOUND('',#196,.T.);
#246=FACE_BOUND('',#197,.T.);
#247=FACE_BOUND('',#13,.T.);
#248=FACE_BOUND('',#198,.T.);
#249=FACE_BOUND('',#199,.T.);
#250=FACE_BOUND('',#200,.T.);
#251=FACE_BOUND('',#14,.T.);
#252=FACE_BOUND('',#201,.T.);
#253=FACE_BOUND('',#202,.T.);
#254=FACE_BOUND('',#203,.T.);
#255=FACE_BOUND('',#15,.T.);
#256=FACE_BOUND('',#204,.T.);
#257=FACE_BOUND('',#205,.T.);
#258=FACE_BOUND('',#206,.T.);
#259=PLANE('',#303);
#260=PLANE('',#308);
#261=PLANE('',#317);
#262=PLANE('',#322);
#263=PLANE('',#327);
#264=PLANE('',#332);
#265=ADVANCED_FACE('',(#207),#259,.T.);
#266=ADVANCED_FACE('',(#208,#209),#26,.T.);
#267=ADVANCED_FACE('',(#210,#211,#212,#213,#214,#215),#260,.T.);
#268=ADVANCED_FACE('',(#216,#217),#27,.T.);
#269=ADVANCED_FACE('',(#218,#219),#261,.T.);
#270=ADVANCED_FACE('',(#220,#221),#28,.T.);
#271=ADVANCED_FACE('',(#222,#223),#262,.T.);
#272=ADVANCED_FACE('',(#224,#225),#29,.T.);
#273=ADVANCED_FACE('',(#226,#227),#263,.T.);
#274=ADVANCED_FACE('',(#228,#229),#30,.T.);
#275=ADVANCED_FACE('',(#230),#264,.T.);
#276=ADVANCED_FACE('',(#231,#232),#16,.T.);
#277=ADVANCED_FACE('',(#233,#234),#17,.T.);
#278=ADVANCED_FACE('',(#235,#236),#18,.T.);
#279=ADVANCED_FACE('',(#237,#238),#19,.T.);
#280=ADVANCED_FACE('',(#239,#240),#20,.T.);
#281=ADVANCED_FACE('',(#241,#242),#21,.T.);
#282=ADVANCED_FACE('',(#243,#244),#22,.F.);
#283=ADVANCED_FACE('',(#245,#246),#31,.F.);
#284=ADVANCED_FACE('',(#247,#248),#23,.F.);
#285=ADVANCED_FACE('',(#249,#250),#32,.F.);
#286=ADVANCED_FACE('',(#251,#252),#24,.F.);
#287=ADVANCED_FACE('',(#253,#254),#33,.F.);
#288=ADVANCED_FACE('',(#255,#256),#25,.F.);
#289=ADVANCED_FACE('',(#257,#258),#34,.F.);
#290=CLOSED_SHELL('',(#265,#266,#267,#268,#269,#270,#271,#272,#273,#274,
#275,#276,#277,#278,#279,#280,#281,#282,#283,#284,#285,#286,#287,#288,#289));
#291=STYLED_ITEM('',(#292),#299);
#292=PRESENTATION_STYLE_ASSIGNMENT((#293));
#293=SURFACE_STYLE_USAGE(.BOTH.,#294);
#294=SURFACE_SIDE_STYLE('',(#295));
#295=SURFACE_STYLE_FILL_AREA(#296);
#296=FILL_AREA_STYLE('',(#297));
#297=FILL_AREA_STYLE_COLOUR('',#298);
#298=COLOUR_RGB('',0.792156862745098,0.819607843137255,0.933333333333333);
#299=MANIFOLD_SOLID_BREP('Part 1',#290);
#300=SHAPE_DEFINITION_REPRESENTATION(#536,#301);
#301=SHAPE_REPRESENTATION('Part 1',(#302),#531);
#302=AXIS2_PLACEMENT_3D('',#452,#352,#353);
#303=AXIS2_PLACEMENT_3D('',#453,#354,#355);
#304=AXIS2_PLACEMENT_3D('',#454,#356,#357);
#305=AXIS2_PLACEMENT_3D('',#456,#358,#359);
#306=AXIS2_PLACEMENT_3D('',#457,#360,#361);
#307=AXIS2_PLACEMENT_3D('',#459,#362,#363);
#308=AXIS2_PLACEMENT_3D('',#461,#364,#365);
#309=AXIS2_PLACEMENT_3D('',#462,#366,#367);
#310=AXIS2_PLACEMENT_3D('',#464,#368,#369);
#311=AXIS2_PLACEMENT_3D('',#466,#370,#371);
#312=AXIS2_PLACEMENT_3D('',#468,#372,#373);
#313=AXIS2_PLACEMENT_3D('',#470,#374,#375);
#314=AXIS2_PLACEMENT_3D('',#472,#376,#377);
#315=AXIS2_PLACEMENT_3D('',#473,#378,#379);
#316=AXIS2_PLACEMENT_3D('',#475,#380,#381);
#317=AXIS2_PLACEMENT_3D('',#477,#382,#383);
#318=AXIS2_PLACEMENT_3D('',#478,#384,#385);
#319=AXIS2_PLACEMENT_3D('',#480,#386,#387);
#320=AXIS2_PLACEMENT_3D('',#482,#388,#389);
#321=AXIS2_PLACEMENT_3D('',#483,#390,#391);
#322=AXIS2_PLACEMENT_3D('',#485,#392,#393);
#323=AXIS2_PLACEMENT_3D('',#486,#394,#395);
#324=AXIS2_PLACEMENT_3D('',#488,#396,#397);
#325=AXIS2_PLACEMENT_3D('',#490,#398,#399);
#326=AXIS2_PLACEMENT_3D('',#491,#400,#401);
#327=AXIS2_PLACEMENT_3D('',#493,#402,#403);
#328=AXIS2_PLACEMENT_3D('',#494,#404,#405);
#329=AXIS2_PLACEMENT_3D('',#496,#406,#407);
#330=AXIS2_PLACEMENT_3D('',#498,#408,#409);
#331=AXIS2_PLACEMENT_3D('',#499,#410,#411);
#332=AXIS2_PLACEMENT_3D('',#501,#412,#413);
#333=AXIS2_PLACEMENT_3D('',#502,#414,#415);
#334=AXIS2_PLACEMENT_3D('',#504,#416,#417);
#335=AXIS2_PLACEMENT_3D('',#505,#418,#419);
#336=AXIS2_PLACEMENT_3D('',#506,#420,#421);
#337=AXIS2_PLACEMENT_3D('',#507,#422,#423);
#338=AXIS2_PLACEMENT_3D('',#508,#424,#425);
#339=AXIS2_PLACEMENT_3D('',#509,#426,#427);
#340=AXIS2_PLACEMENT_3D('',#510,#428,#429);
#341=AXIS2_PLACEMENT_3D('',#512,#430,#431);
#342=AXIS2_PLACEMENT_3D('',#514,#432,#433);
#343=AXIS2_PLACEMENT_3D('',#515,#434,#435);
#344=AXIS2_PLACEMENT_3D('',#517,#436,#437);
#345=AXIS2_PLACEMENT_3D('',#519,#438,#439);
#346=AXIS2_PLACEMENT_3D('',#520,#440,#441);
#347=AXIS2_PLACEMENT_3D('',#522,#442,#443);
#348=AXIS2_PLACEMENT_3D('',#524,#444,#445);
#349=AXIS2_PLACEMENT_3D('',#525,#446,#447);
#350=AXIS2_PLACEMENT_3D('',#527,#448,#449);
#351=AXIS2_PLACEMENT_3D('',#529,#450,#451);
#352=DIRECTION('',(0.,0.,1.));
#353=DIRECTION('',(1.,0.,0.));
#354=DIRECTION('',(-1.,0.,-7.15227674735066E-17));
#355=DIRECTION('',(7.15227674735066E-17,0.,-1.));
#356=DIRECTION('',(-1.,0.,-7.15227674735066E-17));
#357=DIRECTION('',(7.15227674735066E-17,0.,-1.));
#358=DIRECTION('',(1.,0.,7.15227674735066E-17));
#359=DIRECTION('',(-7.15227674735066E-17,0.,1.));
#360=DIRECTION('',(-1.,0.,-7.15227674735055E-17));
#361=DIRECTION('',(7.15227674735055E-17,0.,-1.));
#362=DIRECTION('',(1.,0.,7.15227674735066E-17));
#363=DIRECTION('',(-7.15227674735066E-17,0.,1.));
#364=DIRECTION('',(-1.,0.,-7.15227674735066E-17));
#365=DIRECTION('',(7.15227674735066E-17,0.,-1.));
#366=DIRECTION('',(-1.,0.,0.));
#367=DIRECTION('',(0.,-1.,0.));
#368=DIRECTION('',(-1.,0.,0.));
#369=DIRECTION('',(0.,-1.,0.));
#370=DIRECTION('',(-1.,0.,0.));
#371=DIRECTION('',(0.,-1.,0.));
#372=DIRECTION('',(-1.,0.,0.));
#373=DIRECTION('',(0.,-1.,0.));
#374=DIRECTION('',(-1.,0.,-7.15227674735066E-17));
#375=DIRECTION('',(7.15227674735066E-17,0.,-1.));
#376=DIRECTION('',(1.,0.,7.15227674735066E-17));
#377=DIRECTION('',(-7.15227674735066E-17,0.,1.));
#378=DIRECTION('',(1.,0.,7.15227674735065E-17));
#379=DIRECTION('',(-7.15227674735065E-17,0.,1.));
#380=DIRECTION('',(-1.,0.,-7.15227674735064E-17));
#381=DIRECTION('',(7.15227674735064E-17,0.,-1.));
#382=DIRECTION('',(1.,0.,7.15227674735066E-17));
#383=DIRECTION('',(-7.15227674735066E-17,0.,1.));
#384=DIRECTION('',(1.,0.,7.15227674735066E-17));
#385=DIRECTION('',(-7.15227674735066E-17,0.,1.));
#386=DIRECTION('',(1.,0.,7.15227674735066E-17));
#387=DIRECTION('',(-7.15227674735066E-17,0.,1.));
#388=DIRECTION('',(1.,0.,7.15227674735066E-17));
#389=DIRECTION('',(-7.15227674735066E-17,0.,1.));
#390=DIRECTION('',(1.,0.,7.1522767473506E-17));
#391=DIRECTION('',(-7.1522767473506E-17,0.,1.));
#392=DIRECTION('',(1.,0.,7.15227674735066E-17));
#393=DIRECTION('',(-7.15227674735066E-17,0.,1.));
#394=DIRECTION('',(1.,0.,7.15227674735066E-17));
#395=DIRECTION('',(-7.15227674735066E-17,0.,1.));
#396=DIRECTION('',(1.,0.,7.15227674735066E-17));
#397=DIRECTION('',(-7.15227674735066E-17,0.,1.));
#398=DIRECTION('',(1.,0.,7.15227674735066E-17));
#399=DIRECTION('',(-7.15227674735066E-17,0.,1.));
#400=DIRECTION('',(1.,0.,7.15227674735095E-17));
#401=DIRECTION('',(-7.15227674735095E-17,0.,1.));
#402=DIRECTION('',(1.,0.,7.15227674735066E-17));
#403=DIRECTION('',(-7.15227674735066E-17,0.,1.));
#404=DIRECTION('',(1.,0.,7.15227674735066E-17));
#405=DIRECTION('',(-7.15227674735066E-17,0.,1.));
#406=DIRECTION('',(1.,0.,7.15227674735066E-17));
#407=DIRECTION('',(-7.15227674735066E-17,0.,1.));
#408=DIRECTION('',(1.,0.,7.15227674735066E-17));
#409=DIRECTION('',(-7.15227674735066E-17,0.,1.));
#410=DIRECTION('',(1.,0.,7.15227674735064E-17));
#411=DIRECTION('',(-7.15227674735064E-17,0.,1.));
#412=DIRECTION('',(1.,0.,7.15227674735066E-17));
#413=DIRECTION('',(-7.15227674735066E-17,0.,1.));
#414=DIRECTION('',(1.,0.,7.15227674735066E-17));
#415=DIRECTION('',(-7.15227674735066E-17,0.,1.));
#416=DIRECTION('',(1.,0.,7.15227674735055E-17));
#417=DIRECTION('',(-7.15227674735055E-17,0.,1.));
#418=DIRECTION('',(-1.,0.,-7.15227674735064E-17));
#419=DIRECTION('',(7.15227674735064E-17,0.,-1.));
#420=DIRECTION('',(-1.,0.,-7.15227674735095E-17));
#421=DIRECTION('',(7.15227674735095E-17,0.,-1.));
#422=DIRECTION('',(-1.,0.,-7.1522767473506E-17));
#423=DIRECTION('',(7.1522767473506E-17,0.,-1.));
#424=DIRECTION('',(1.,0.,7.15227674735064E-17));
#425=DIRECTION('',(-7.15227674735064E-17,0.,1.));
#426=DIRECTION('',(-1.,0.,-7.15227674735065E-17));
#427=DIRECTION('',(7.15227674735065E-17,0.,-1.));
#428=DIRECTION('',(-1.,0.,0.));
#429=DIRECTION('',(0.,-1.,0.));
#430=DIRECTION('',(-1.,0.,0.));
#431=DIRECTION('',(0.,-1.,0.));
#432=DIRECTION('',(-1.,0.,0.));
#433=DIRECTION('',(0.,-1.,0.));
#434=DIRECTION('',(-1.,0.,0.));
#435=DIRECTION('',(0.,-1.,0.));
#436=DIRECTION('',(-1.,0.,0.));
#437=DIRECTION('',(0.,-1.,0.));
#438=DIRECTION('',(-1.,0.,0.));
#439=DIRECTION('',(0.,-1.,0.));
#440=DIRECTION('',(-1.,0.,0.));
#441=DIRECTION('',(0.,-1.,0.));
#442=DIRECTION('',(-1.,0.,0.));
#443=DIRECTION('',(0.,-1.,0.));
#444=DIRECTION('',(-1.,0.,0.));
#445=DIRECTION('',(0.,-1.,0.));
#446=DIRECTION('',(-1.,0.,0.));
#447=DIRECTION('',(0.,-1.,0.));
#448=DIRECTION('',(-1.,0.,0.));
#449=DIRECTION('',(0.,-1.,0.));
#450=DIRECTION('',(-1.,0.,0.));
#451=DIRECTION('',(0.,-1.,0.));
#452=CARTESIAN_POINT('',(0.,0.,0.));
#453=CARTESIAN_POINT('',(2.6821037802565E-19,0.,1.91831485015099E-35));
#454=CARTESIAN_POINT('',(2.6821037802565E-19,0.,1.91831485015096E-35));
#455=CARTESIAN_POINT('',(7.33108366603443E-19,0.,-0.0065));
#456=CARTESIAN_POINT('',(0.1552,0.,1.11003335118882E-17));
#457=CARTESIAN_POINT('',(0.001,0.,7.15227674735056E-20));
#458=CARTESIAN_POINT('',(0.001,0.,-0.0075));
#459=CARTESIAN_POINT('',(0.006,0.,4.2913660484104E-19));
#460=CARTESIAN_POINT('',(0.006,0.,0.0075));
#461=CARTESIAN_POINT('',(0.006,0.,0.0075));
#462=CARTESIAN_POINT('',(0.006,0.,0.012));
#463=CARTESIAN_POINT('',(0.006,-0.00165,0.012));
#464=CARTESIAN_POINT('',(0.006,0.012,4.2913660484104E-19));
#465=CARTESIAN_POINT('',(0.006,0.01035,4.2913660484104E-19));
#466=CARTESIAN_POINT('',(0.006,-0.012,4.2913660484104E-19));
#467=CARTESIAN_POINT('',(0.006,-0.01365,4.2913660484104E-19));
#468=CARTESIAN_POINT('',(0.006,0.,-0.012));
#469=CARTESIAN_POINT('',(0.006,-0.00165,-0.012));
#470=CARTESIAN_POINT('',(0.006,0.,4.29136604841039E-19));
#471=CARTESIAN_POINT('',(0.006,0.,-0.0155));
#472=CARTESIAN_POINT('',(0.1552,0.,1.11003335118882E-17));
#473=CARTESIAN_POINT('',(0.020556624327026,0.,1.47026666178211E-18));
#474=CARTESIAN_POINT('',(0.020556624327026,0.,0.016));
#475=CARTESIAN_POINT('',(0.0065,0.,4.64897988577791E-19));
#476=CARTESIAN_POINT('',(0.0065,0.,-0.016));
#477=CARTESIAN_POINT('',(0.022,0.,0.016));
#478=CARTESIAN_POINT('',(0.022,0.,1.57350088441715E-18));
#479=CARTESIAN_POINT('',(0.022,0.,0.0135));
#480=CARTESIAN_POINT('',(0.022,0.,1.57350088441714E-18));
#481=CARTESIAN_POINT('',(0.022,0.,0.0125));
#482=CARTESIAN_POINT('',(0.1552,0.,1.11003335118882E-17));
#483=CARTESIAN_POINT('',(0.0675,0.,4.8277868044617E-18));
#484=CARTESIAN_POINT('',(0.0675,0.,0.0125));
#485=CARTESIAN_POINT('',(0.068,0.,0.0125));
#486=CARTESIAN_POINT('',(0.068,0.,4.86354818819845E-18));
#487=CARTESIAN_POINT('',(0.068,0.,0.012));
#488=CARTESIAN_POINT('',(0.068,0.,4.86354818819845E-18));
#489=CARTESIAN_POINT('',(0.068,0.,0.0075));
#490=CARTESIAN_POINT('',(0.1552,0.,1.11003335118882E-17));
#491=CARTESIAN_POINT('',(0.1267,0.,9.06193463889329E-18));
#492=CARTESIAN_POINT('',(0.1267,0.,0.00750000000000001));
#493=CARTESIAN_POINT('',(0.1272,0.,0.0075));
#494=CARTESIAN_POINT('',(0.1272,0.,9.09769602263004E-18));
#495=CARTESIAN_POINT('',(0.1272,0.,0.00700000000000001));
#496=CARTESIAN_POINT('',(0.1272,0.,9.09769602263004E-18));
#497=CARTESIAN_POINT('',(0.1272,0.,0.00500000000000001));
#498=CARTESIAN_POINT('',(0.1552,0.,1.11003335118882E-17));
#499=CARTESIAN_POINT('',(0.1547,0.,1.10645721281515E-17));
#500=CARTESIAN_POINT('',(0.1547,0.,0.00500000000000001));
#501=CARTESIAN_POINT('',(0.1552,0.,0.005));
#502=CARTESIAN_POINT('',(0.1552,0.,1.11003335118882E-17));
#503=CARTESIAN_POINT('',(0.1552,0.,0.00450000000000001));
#504=CARTESIAN_POINT('',(0.001,0.,7.15227674735056E-20));
#505=CARTESIAN_POINT('',(0.1552,0.,1.11003335118882E-17));
#506=CARTESIAN_POINT('',(0.1272,0.,9.09769602263004E-18));
#507=CARTESIAN_POINT('',(0.068,0.,4.86354818819845E-18));
#508=CARTESIAN_POINT('',(0.0065,0.,4.64897988577791E-19));
#509=CARTESIAN_POINT('',(0.022,0.,1.57350088441714E-18));
#510=CARTESIAN_POINT('',(0.0175,0.,-0.012));
#511=CARTESIAN_POINT('',(0.0184914200213955,0.,-0.012));
#512=CARTESIAN_POINT('',(0.0175,0.,-0.012));
#513=CARTESIAN_POINT('',(0.0175,-0.00165,-0.012));
#514=CARTESIAN_POINT('',(0.006,0.,-0.012));
#515=CARTESIAN_POINT('',(0.0175,-0.012,4.2913660484104E-19));
#516=CARTESIAN_POINT('',(0.0184914200213955,-0.012,-2.63037890436039E-18));
#517=CARTESIAN_POINT('',(0.0175,-0.012,4.2913660484104E-19));
#518=CARTESIAN_POINT('',(0.0175,-0.01365,4.2913660484104E-19));
#519=CARTESIAN_POINT('',(0.006,-0.012,4.2913660484104E-19));
#520=CARTESIAN_POINT('',(0.0175,0.012,4.2913660484104E-19));
#521=CARTESIAN_POINT('',(0.0184914200213955,0.012,-2.63037890436039E-18));
#522=CARTESIAN_POINT('',(0.0175,0.012,4.2913660484104E-19));
#523=CARTESIAN_POINT('',(0.0175,0.01035,4.2913660484104E-19));
#524=CARTESIAN_POINT('',(0.006,0.012,4.2913660484104E-19));
#525=CARTESIAN_POINT('',(0.0175,0.,0.012));
#526=CARTESIAN_POINT('',(0.0184914200213955,0.,0.012));
#527=CARTESIAN_POINT('',(0.0175,0.,0.012));
#528=CARTESIAN_POINT('',(0.0175,-0.00165,0.012));
#529=CARTESIAN_POINT('',(0.006,0.,0.012));
#530=MECHANICAL_DESIGN_GEOMETRIC_PRESENTATION_REPRESENTATION('',(#291),
#531);
#531=(
GEOMETRIC_REPRESENTATION_CONTEXT(3)
GLOBAL_UNCERTAINTY_ASSIGNED_CONTEXT((#532))
GLOBAL_UNIT_ASSIGNED_CONTEXT((#535,#534,#533))
REPRESENTATION_CONTEXT('Part 1','TOP_LEVEL_ASSEMBLY_PART')
);
#532=UNCERTAINTY_MEASURE_WITH_UNIT(LENGTH_MEASURE(5.E-6),#535,
'DISTANCE_ACCURACY_VALUE','Maximum Tolerance applied to model');
#533=(
NAMED_UNIT(*)
SI_UNIT($,.STERADIAN.)
SOLID_ANGLE_UNIT()
);
#534=(
NAMED_UNIT(*)
PLANE_ANGLE_UNIT()
SI_UNIT($,.RADIAN.)
);
#535=(
LENGTH_UNIT()
NAMED_UNIT(*)
SI_UNIT($,.METRE.)
);
#536=PRODUCT_DEFINITION_SHAPE('','',#537);
#537=PRODUCT_DEFINITION('','',#539,#538);
#538=PRODUCT_DEFINITION_CONTEXT('',#545,'design');
#539=PRODUCT_DEFINITION_FORMATION_WITH_SPECIFIED_SOURCE('','',#541,
 .NOT_KNOWN.);
#540=PRODUCT_RELATED_PRODUCT_CATEGORY('','',(#541));
#541=PRODUCT('Part 1','Part 1','Part 1',(#543));
#542=PRODUCT_CATEGORY('','');
#543=PRODUCT_CONTEXT('',#545,'mechanical');
#544=APPLICATION_PROTOCOL_DEFINITION('international standard',
'ap242_managed_model_based_3d_engineering',2011,#545);
#545=APPLICATION_CONTEXT('managed model based 3d engineering');
ENDSEC;
END-ISO-10303-21;
